[Tabs] K-ON!

Ver o tópico anterior Ver o tópico seguinte Ir em baixo

[Tabs] K-ON!

Mensagem por Yagami Shinji em Seg Jul 13, 2009 11:31 pm

Já existe um tópico assim aberto no Animesuki, mas vou trazer para cá.
-----------------------------------------------------------------

Poste no formato normal de tabs.

EX:
Se não for possível visualizar, selecione o texto.
Código:

E||-------------------|--------------------------|--------------------------|
B||-------------------|--------------------------|--------------------------|
G||-------------------|--5--5--5--5--5--5--5--5--|--7--7--7--7--7--7--7--7--|
D||-------------------|--5--5--5--5--5--5--5--5--|--7--7--7--7--7--7--7--7--|
A||-------------------|--3--3--3--3--3--3--3--3--|--5--5--5--5--5--5--5--5--|
E||-------------------|--------------------------|--------------------------|


-----------------------------------------------------------------
My love is a stapler TV version - K-ON!
-----------------------------------------------------------------

Tuning: Standard

| / slide up
| \ slide down
| h hammer-on
| p pull-off
| ~ vibrato
| + harmonic
| x Mute note
| * Palm mute


Se não for possível visualizar, selecione o texto.
Spoiler:

Código:

Intro

e|---------------------------------------------------------------|
B|---6-5---13~~~15-13-11-------------------------13-13-13--------|
G|-----5------------------14-12--14-15-14------------------------|
D|-----5---------------------------------------------------------|
A|----------------------------------------15---------------------|
E|---------------------------------------------------------------|

e|---------------------------------------------------------------|
B|--------6/13~~~15-13-11----------------------------------------|
G|------------------------14-12--12--12-15-14----12--------------|
D|--------------------------------------------15-----------------|
A|---------------------------------------------------------------|
E|---------------------------------------------------------------|


Verse
          *****              *****
e|--------------------------------------4--5--44---------------------------------------|
B|--------------------------------------5--6--55---------------------------------------|
G|-----------------------55-5--55555-5--6--7--66--7-77777--5-555555--3-33333--5-555555-|
D|-------3-33333-3--5--7-55-5--55555-5--6--7--66--7-77777--5-555555--3-33333--5-555555-|
A|-------3-33333-3--5--7-33-3--33333-3--4--5--44--5-55555--3-333333--1-11111--3-333333-|
E|-/16\--1-11111-1--3--5---------------------------------------------------------------|

          *****              *****
e|--------------------------------------4--5--44---------------------------------------|
B|--------------------------------------5--6--55---------------------------------------|
G|-----------------------55-5--55555-5--6--7--66--7-77777--5-555555--3-33333--5-555555-|
D|-------3-33333-3--5--7-55-5--55555-5--6--7--66--7-77777--5-555555--3-33333--5-555555-|
A|-------3-33333-3--5--7-33-3--33333-3--4--5--44--5-55555--3-333333--1-11111--3-333333-|
E|-------1-11111-1--3--5---------------------------------------------------------------|


Prechorus

      **  **  *  **  **  *    **  **  *    **  **  *
e|---------------------------------------------------------------|
B|---------------------------------------------------------------|
G|---3-33-3-33-3-3-3-33-3-33-3-3-----------------7-77-7-77-7-7---|
D|---3-33-3-33-3-3-3-33-3-33-3-3--7-77-7-77-7-7--7-77-7-77-7-7---|
A|---1-11-1-11-1-1-1-11-1-11-1-1--7-77-7-77-7-7--5-55-5-55-5-5---|
E|--------------------------------5-55-5-55-5-5------------------|

      **  **  *  **  **  *    **  **  *
e|----------------------------------------------------|
B|----------------------------------------------------|
G|---3-33-3-33-3-3-3-33-3-33-3-3---5-55-5-55-5-5-5----|
D|---3-33-3-33-3-3-3-33-3-33-3-3---5-55-5-55-5-5-5----|
A|---1-11-1-11-1-1-1-11-1-11-1-1---3-33-3-33-3-3-3----|
E|----------------------------------------------------|


Chorus

fast strumming

e|---------------------------------------------------------------
B|---------------------------------------------------------------
G|----------------------------------7-7-777777-77-5-5-555555-55--
D|------3-3-333333-33-7-7-777777-77-7-7-777777-77-5-5-555555-55--
A|------3-3-333333-33-7-7-777777-77-5-5-555555-55-3-3-333333-33--
E|-/16\-1-1-111111-11-5-5-555555-55------------------------------

-----------------------------------------------------------------|
-----------------------------------------------------------------|
--3-3-333333-33-----------------------------5-5-555555-55--------|
--3-3-333333-33-7-7-777777-77-5-5-555555-55-5-5-555555-55--------|
--1-1-111111-11-7-7-777777-77-5-5-555555-55-3-3-333333-33--------|
----------------5-5-555555-55-3-3-333333-33----------------------|


e|---------------------------------------------------------------
B|---------------------------------------------------------------
G|----------------5-5-55-6-6-66-7-7-777777-77-8-8-888888-88------
D|--3-3-333333-33-5-5-55-6-6-66-7-7-777777-77-8-8-888888-88------
A|--3-3-333333-33-3-3-33-4-4-44-5-5-555555-55-6-6-666666-66------
E|--1-1-111111-11------------------------------------------------

-----------------------------------------------------------------|
-----------------------------------------------------------------|
------------------------------3-3-333333-33--5-------------------|
--5-5-555555-55-7-7-777777-77-3-3-333333-33--5-------------------|
--5-5-555555-55-7-7-777777-77-1-1-111111-11--3-------------------|
--3-3-333333-33-5-5-555555-55------------------------------------|


Bridge

e|-------------------------1-3-4-5---------------0---------------|
B|---6-5------6-5----------1-3-4-5---6-5---------1---------------|
G|-------5--------5----5-5---------------5----3--0---------------|
D|--------------------------------------------3--2---------------|
A|--------------------------------------------1--3---------------|
E|---------------------------------------------------------------|


Outro

e|---------------------------------------------------------------|
B|------6/13~~~15-13-11-------------------------13-13-13---------|
G|-----------------------14-12--14-15-14-------------------------|
D|---------------------------------------------------------------| play 2x
A|---------------------------------------15----------------------|
E|---------------------------------------------------------------|


e|---------------------------------------------------------------|
B|--------6/13~~~15-13-11-----------------------------20---------|
G|------------------------14-12--12--12-15-14----12--------------|
D|--------------------------------------------15-----------------|
A|---------------------------------------------------------------|
E|---------------------------------------------------------------|


Yui's riff from Ep. 2


Se não for possível visualizar, selecione o texto.
Spoiler:
Código:

E||--------------------------|
B||--------------------------|
G||--------------------------|
D||----0-2-0-----0-2-0---0---|
A||--3-------3-3-------3-----|
E||--------------------------|


Última edição por Yagami Shinji em Ter Jul 14, 2009 9:26 pm, editado 2 vez(es) (Razão : Evite double post, triple post mais ainda)

Yagami Shinji
Banido
Banido

Masculino
Mensagens : 128
Mystery Points : 166
Idade : 21
Localização : RJ
Data de inscrição : 12/07/2009
Guitarra

Ver perfil do usuário http://mmdxdm.6te.net/

Voltar ao Topo Ir em baixo

Re: [Tabs] K-ON!

Mensagem por Sean em Ter Jul 14, 2009 9:04 am

nossa vc esta trabalhando duro... Razz

meus parabens... ^^

Sean
Famoso(a)
Famoso(a)

Masculino
Mensagens : 338
Mystery Points : 384
Idade : 27
Localização : Caxias do Sul - Rio Grande do Sul
Data de inscrição : 02/07/2009
Baixo

Ver perfil do usuário

Voltar ao Topo Ir em baixo

Re: [Tabs] K-ON!

Mensagem por MiojoMan em Ter Jul 14, 2009 1:09 pm

achei bem legal, quando eu tiver com um tempo livre vou ver se pego essas musicas

_________________

"A guitarra é a alma humana falando através de seis cordas"
(Eddie Lee - guitarrista do Dying Breed)

MiojoMan
MOD
MOD

Masculino
Mensagens : 223
Mystery Points : 242
Idade : 23
Localização : Natal/RN
Data de inscrição : 28/06/2009
Guitarra

Ver perfil do usuário http://beckcenter.kit.net/

Voltar ao Topo Ir em baixo

Re: [Tabs] K-ON!

Mensagem por Hiver em Ter Jul 14, 2009 6:28 pm

Cool, mas cuidado com esses posts seguidos, isso não é cool =|

_________________

Hiver
Vampirelicious
Vampirelicious

Masculino
Mensagens : 510
Mystery Points : 649
Idade : 27
Localização : Hellcity
Data de inscrição : 11/06/2009
Guitarra

Ver perfil do usuário http://gaki.ativoforum.com

Voltar ao Topo Ir em baixo

Re: [Tabs] K-ON!

Mensagem por Yagami Shinji em Ter Jul 14, 2009 9:24 pm

Guardian escreveu:Cool, mas cuidado com esses posts seguidos, isso não é cool =|

Triple post senão ia bagunçar a mensagem principal.
Vou ajeitar e colocar umas tags.

Yagami Shinji
Banido
Banido

Masculino
Mensagens : 128
Mystery Points : 166
Idade : 21
Localização : RJ
Data de inscrição : 12/07/2009
Guitarra

Ver perfil do usuário http://mmdxdm.6te.net/

Voltar ao Topo Ir em baixo

Re: [Tabs] K-ON!

Mensagem por Conteúdo patrocinado


Conteúdo patrocinado


Voltar ao Topo Ir em baixo

Ver o tópico anterior Ver o tópico seguinte Voltar ao Topo


 
Permissão deste fórum:
Você não pode responder aos tópicos neste fórum